  0
SECTION
  2
HEADER
  9
$ACADVER
  1
AC1015
  9
$ACADMAINTVER
 70
     6
  9
$DWGCODEPAGE
  3
ANSI_1254
  9
$INSBASE
 10
0.0
 20
0.0
 30
0.0
  9
$EXTMIN
 10
0.0
 20
0.0
 30
0.0
  9
$EXTMAX
 10
279.4
 20
215.9
 30
0.0
  9
$LIMMIN
 10
0.0
 20
0.0
  9
$LIMMAX
 10
279.4
 20
215.9
  9
$ORTHOMODE
 70
     0
  9
$REGENMODE
 70
     1
  9
$FILLMODE
 70
     1
  9
$QTEXTMODE
 70
     0
  9
$MIRRTEXT
 70
     1
  9
$LTSCALE
 40
1.0
  9
$ATTMODE
 70
     1
  9
$TEXTSIZE
 40
3.5
  9
$TRACEWID
 40
1.0
  9
$TEXTSTYLE
  7
Standard
  9
$CLAYER
  8
0
  9
$CELTYPE
  6
ByLayer
  9
$CECOLOR
 62
   256
  9
$CELTSCALE
 40
1.0
  9
$DISPSILH
 70
     0
  9
$DIMSCALE
 40
1.0
  9
$DIMASZ
 40
3.5
  9
$DIMEXO
 40
1.0
  9
$DIMDLI
 40
3.75
  9
$DIMRND
 40
0.0
  9
$DIMDLE
 40
0.0
  9
$DIMEXE
 40
1.0
  9
$DIMTP
 40
0.0
  9
$DIMTM
 40
0.0
  9
$DIMTXT
 40
3.5
  9
$DIMCEN
 40
2.5
  9
$DIMTSZ
 40
0.0
  9
$DIMTOL
 70
     0
  9
$DIMLIM
 70
     0
  9
$DIMTIH
 70
     1
  9
$DIMTOH
 70
     1
  9
$DIMSE1
 70
     0
  9
$DIMSE2
 70
     0
  9
$DIMTAD
 70
     1
  9
$DIMZIN
 70
     0
  9
$DIMBLK
  1

  9
$DIMASO
 70
     1
  9
$DIMSHO
 70
     1
  9
$DIMPOST
  1

  9
$DIMAPOST
  1

  9
$DIMALT
 70
     0
  9
$DIMALTD
 70
     3
  9
$DIMALTF
 40
0.0393700787
  9
$DIMLFAC
 40
1.0
  9
$DIMTOFL
 70
     1
  9
$DIMTVP
 40
0.0
  9
$DIMTIX
 70
     0
  9
$DIMSOXD
 70
     0
  9
$DIMSAH
 70
     0
  9
$DIMBLK1
  1

  9
$DIMBLK2
  1

  9
$DIMSTYLE
  2
ISO-25
  9
$DIMCLRD
 70
     0
  9
$DIMCLRE
 70
     0
  9
$DIMCLRT
 70
     0
  9
$DIMTFAC
 40
1.0
  9
$DIMGAP
 40
1.524
  9
$DIMJUST
 70
     0
  9
$DIMSD1
 70
     0
  9
$DIMSD2
 70
     0
  9
$DIMTOLJ
 70
     0
  9
$DIMTZIN
 70
     0
  9
$DIMALTZ
 70
     0
  9
$DIMALTTZ
 70
     0
  9
$DIMUPT
 70
     0
  9
$DIMDEC
 70
     2
  9
$DIMTDEC
 70
     2
  9
$DIMALTU
 70
     2
  9
$DIMALTTD
 70
     3
  9
$DIMTXSTY
  7
Standard
  9
$DIMAUNIT
 70
     0
  9
$DIMADEC
 70
     2
  9
$DIMALTRND
 40
0.0
  9
$DIMAZIN
 70
     0
  9
$DIMDSEP
 70
    44
  9
$DIMATFIT
 70
     3
  9
$DIMFRAC
 70
     0
  9
$DIMLDRBLK
  1

  9
$DIMLUNIT
 70
     2
  9
$DIMLWD
 70
    -2
  9
$DIMLWE
 70
    -2
  9
$DIMTMOVE
 70
     0
  9
$LUNITS
 70
     2
  9
$LUPREC
 70
     2
  9
$SKETCHINC
 40
1.0
  9
$FILLETRAD
 40
10.0
  9
$AUNITS
 70
     0
  9
$AUPREC
 70
     2
  9
$MENU
  1
.
  9
$ELEVATION
 40
0.0
  9
$PELEVATION
 40
0.0
  9
$THICKNESS
 40
0.0
  9
$LIMCHECK
 70
     0
  9
$CHAMFERA
 40
0.0
  9
$CHAMFERB
 40
0.0
  9
$CHAMFERC
 40
0.0
  9
$CHAMFERD
 40
0.0
  9
$SKPOLY
 70
     0
  9
$TDCREATE
 40
2459935.709490614
  9
$TDUCREATE
 40
2459935.584490614
  9
$TDUPDATE
 40
2459935.709490798
  9
$TDUUPDATE
 40
2459935.584490798
  9
$TDINDWG
 40
0.0000000116
  9
$TDUSRTIMER
 40
0.0000000116
  9
$USRTIMER
 70
     1
  9
$ANGBASE
 50
0.0
  9
$ANGDIR
 70
     0
  9
$PDMODE
 70
     0
  9
$PDSIZE
 40
-1.0
  9
$PLINEWID
 40
0.0
  9
$SPLFRAME
 70
     0
  9
$SPLINETYPE
 70
     6
  9
$SPLINESEGS
 70
     8
  9
$HANDSEED
  5
10E
  9
$SURFTAB1
 70
     6
  9
$SURFTAB2
 70
     6
  9
$SURFTYPE
 70
     6
  9
$SURFU
 70
     6
  9
$SURFV
 70
     6
  9
$UCSBASE
  2

  9
$UCSNAME
  2

  9
$UCSORG
 10
0.0
 20
0.0
 30
0.0
  9
$UCSXDIR
 10
1.0
 20
0.0
 30
0.0
  9
$UCSYDIR
 10
0.0
 20
1.0
 30
0.0
  9
$UCSORTHOREF
  2

  9
$UCSORTHOVIEW
 70
     0
  9
$UCSORGTOP
 10
0.0
 20
0.0
 30
0.0
  9
$UCSORGBOTTOM
 10
0.0
 20
0.0
 30
0.0
  9
$UCSORGLEFT
 10
0.0
 20
0.0
 30
0.0
  9
$UCSORGRIGHT
 10
0.0
 20
0.0
 30
0.0
  9
$UCSORGFRONT
 10
0.0
 20
0.0
 30
0.0
  9
$UCSORGBACK
 10
0.0
 20
0.0
 30
0.0
  9
$PUCSBASE
  2

  9
$PUCSNAME
  2

  9
$PUCSORG
 10
0.0
 20
0.0
 30
0.0
  9
$PUCSXDIR
 10
1.0
 20
0.0
 30
0.0
  9
$PUCSYDIR
 10
0.0
 20
1.0
 30
0.0
  9
$PUCSORTHOREF
  2

  9
$PUCSORTHOVIEW
 70
     0
  9
$PUCSORGTOP
 10
0.0
 20
0.0
 30
0.0
  9
$PUCSORGBOTTOM
 10
0.0
 20
0.0
 30
0.0
  9
$PUCSORGLEFT
 10
0.0
 20
0.0
 30
0.0
  9
$PUCSORGRIGHT
 10
0.0
 20
0.0
 30
0.0
  9
$PUCSORGFRONT
 10
0.0
 20
0.0
 30
0.0
  9
$PUCSORGBACK
 10
0.0
 20
0.0
 30
0.0
  9
$USERI1
 70
     0
  9
$USERI2
 70
     0
  9
$USERI3
 70
     0
  9
$USERI4
 70
     0
  9
$USERI5
 70
     0
  9
$USERR1
 40
0.0
  9
$USERR2
 40
0.0
  9
$USERR3
 40
0.0
  9
$USERR4
 40
0.0
  9
$USERR5
 40
0.0
  9
$WORLDVIEW
 70
     1
  9
$SHADEDGE
 70
     3
  9
$SHADEDIF
 70
    70
  9
$TILEMODE
 70
     1
  9
$MAXACTVP
 70
    64
  9
$PINSBASE
 10
0.0
 20
0.0
 30
0.0
  9
$PLIMCHECK
 70
     0
  9
$PEXTMIN
 10
1.0000000000E+20
 20
1.0000000000E+20
 30
1.0000000000E+20
  9
$PEXTMAX
 10
-1.0000000000E+20
 20
-1.0000000000E+20
 30
-1.0000000000E+20
  9
$PLIMMIN
 10
0.0
 20
0.0
  9
$PLIMMAX
 10
420.0
 20
297.0
  9
$UNITMODE
 70
     0
  9
$VISRETAIN
 70
     1
  9
$PLINEGEN
 70
     0
  9
$PSLTSCALE
 70
     1
  9
$TREEDEPTH
 70
  3020
  9
$CMLSTYLE
  2
Standard
  9
$CMLJUST
 70
     0
  9
$CMLSCALE
 40
20.0
  9
$PROXYGRAPHICS
 70
     1
  9
$MEASUREMENT
 70
     1
  9
$CELWEIGHT
370
    -1
  9
$ENDCAPS
280
     0
  9
$JOINSTYLE
280
     0
  9
$LWDISPLAY
290
     1
  9
$INSUNITS
 70
     4
  9
$HYPERLINKBASE
  1

  9
$STYLESHEET
  1

  9
$XEDIT
290
     1
  9
$CEPSNTYPE
380
     0
  9
$PSTYLEMODE
290
     1
  9
$FINGERPRINTGUID
  2
{3b337e55-c528-452e-867f-302f8960be19}
  9
$VERSIONGUID
  2
{FAEB1C32-E019-11D5-929B-00C0DF256EC4}
  9
$EXTNAMES
290
     1
  9
$PSVPSCALE
 40
0.0
  9
$OLESTARTUP
290
     0
  0
ENDSEC
  0
SECTION
  2
CLASSES
  0
CLASS
  1
ACDBDICTIONARYWDFLT
  2
AcDbDictionaryWithDefault
  3
ObjectDBX Classes
 90
        0
280
     0
281
     0
  0
CLASS
  1
VISUALSTYLE
  2
AcDbVisualStyle
  3
ObjectDBX Classes
 90
     4095
280
     0
281
     0
  0
CLASS
  1
MATERIAL
  2
AcDbMaterial
  3
ObjectDBX Classes
 90
     1153
280
     0
281
     0
  0
CLASS
  1
SCALE
  2
AcDbScale
  3
ObjectDBX Classes
 90
     1153
280
     0
281
     0
  0
CLASS
  1
TABLESTYLE
  2
AcDbTableStyle
  3
ObjectDBX Classes
 90
     4095
280
     0
281
     0
  0
CLASS
  1
MLEADERSTYLE
  2
AcDbMLeaderStyle
  3
ACDB_MLEADERSTYLE_CLASS
 90
     4095
280
     0
281
     0
  0
CLASS
  1
SUN
  2
AcDbSun
  3
SCENEOE
 90
     1153
280
     0
281
     0
  0
CLASS
  1
ACDBPLACEHOLDER
  2
AcDbPlaceHolder
  3
ObjectDBX Classes
 90
        0
280
     0
281
     0
  0
CLASS
  1
LAYOUT
  2
AcDbLayout
  3
ObjectDBX Classes
 90
        0
280
     0
281
     0
  0
ENDSEC
  0
SECTION
  2
TABLES
  0
TABLE
  2
VPORT
  5
8
330
0
100
AcDbSymbolTable
 70
     1
  0
VPORT
  5
29
330
8
100
AcDbSymbolTableRecord
100
AcDbViewportTableRecord
  2
*Active
 70
     0
 10
0.0
 20
0.0
 11
1.0
 21
1.0
 12
139.7
 22
107.95
 13
0.0
 23
0.0
 14
10.0
 24
10.0
 15
10.0
 25
10.0
 16
0.0
 26
0.0
 36
1.0
 17
0.0
 27
0.0
 37
0.0
 40
215.9
 41
1.2941176471
 42
50.0
 43
0.0
 44
0.0
 50
0.0
 51
0.0
 71
     0
 72
  2000
 73
     1
 74
     3
 75
     0
 76
     0
 77
     0
 78
     0
281
     0
 65
     1
110
0.0
120
0.0
130
0.0
111
1.0
121
0.0
131
0.0
112
0.0
122
1.0
132
0.0
 79
     0
146
0.0
  0
ENDTAB
  0
TABLE
  2
LTYPE
  5
5
330
0
100
AcDbSymbolTable
 70
     6
  0
LTYPE
  5
14
330
5
100
AcDbSymbolTableRecord
100
AcDbLinetypeTableRecord
  2
ByBlock
 70
     0
  3

 72
    65
 73
     0
 40
0.0
  0
LTYPE
  5
15
330
5
100
AcDbSymbolTableRecord
100
AcDbLinetypeTableRecord
  2
ByLayer
 70
     0
  3

 72
    65
 73
     0
 40
0.0
  0
LTYPE
  5
16
330
5
100
AcDbSymbolTableRecord
100
AcDbLinetypeTableRecord
  2
Continuous
 70
     0
  3
Solid line
 72
    65
 73
     0
 40
0.0
  0
LTYPE
  5
6E
330
5
100
AcDbSymbolTableRecord
100
AcDbLinetypeTableRecord
  2
HIDDEN
 70
     0
  3
Hidden __ __ __ __ __ __ __ __ __ __ __ __ __ __
 72
    65
 73
     2
 40
1.905
 49
1.27
 74
     0
 49
-0.635
 74
     0
  0
LTYPE
  5
6F
330
5
100
AcDbSymbolTableRecord
100
AcDbLinetypeTableRecord
  2
PHANTOM
 70
     0
  3
Phantom ______  __  __  ______  __  __  ______
 72
    65
 73
     6
 40
12.7
 49
6.35
 74
     0
 49
-1.27
 74
     0
 49
1.27
 74
     0
 49
-1.27
 74
     0
 49
1.27
 74
     0
 49
-1.27
 74
     0
  0
LTYPE
  5
70
330
5
100
AcDbSymbolTableRecord
100
AcDbLinetypeTableRecord
  2
CENTER
 70
     0
  3
Center ____ _ ____ _ ____ _ ____ _ ____ _ ____
 72
    65
 73
     4
 40
10.16
 49
6.35
 74
     0
 49
-1.27
 74
     0
 49
1.27
 74
     0
 49
-1.27
 74
     0
  0
LTYPE
  5
71
330
5
100
AcDbSymbolTableRecord
100
AcDbLinetypeTableRecord
  2
CENTERX2
 70
     0
  3
Center (2x) ________  __  ________  __  _____
 72
    65
 73
     4
 40
20.32
 49
12.7
 74
     0
 49
-2.54
 74
     0
 49
2.54
 74
     0
 49
-2.54
 74
     0
  0
LTYPE
  5
72
330
5
100
AcDbSymbolTableRecord
100
AcDbLinetypeTableRecord
  2
DOT2
 70
     0
  3
Dot (.5x) ........................................
 72
    65
 73
     2
 40
0.635
 49
0.0
 74
     0
 49
-0.635
 74
     0
  0
ENDTAB
  0
TABLE
  2
LAYER
  5
2
330
0
100
AcDbSymbolTable
 70
    17
  0
LAYER
  5
10
330
2
100
AcDbSymbolTableRecord
100
AcDbLayerTableRecord
  2
0
 70
     0
 62
     7
  6
Continuous
370
    -3
390
F
  0
LAYER
  5
73
330
2
100
AcDbSymbolTableRecord
100
AcDbLayerTableRecord
  2
FORMAT
 70
     0
 62
     7
  6
Continuous
370
    -3
390
F
  0
LAYER
  5
74
330
2
100
AcDbSymbolTableRecord
100
AcDbLayerTableRecord
  2
YARDIMCI_GEOMETRI
 70
     0
 62
    -6
  6
Continuous
290
     0
370
    -3
390
F
  0
LAYER
  5
75
330
2
100
AcDbSymbolTableRecord
100
AcDbLayerTableRecord
  2
SAYFA_CERCEVESI
 70
     0
 62
     7
  6
Continuous
370
    25
390
F
  0
LAYER
  5
76
330
2
100
AcDbSymbolTableRecord
100
AcDbLayerTableRecord
  2
ANTET
 70
     0
 62
     7
  6
Continuous
370
    -3
390
F
  0
LAYER
  5
77
330
2
100
AcDbSymbolTableRecord
100
AcDbLayerTableRecord
  2
OLCU
 70
     0
 62
   150
  6
Continuous
370
    -3
390
F
  0
LAYER
  5
78
330
2
100
AcDbSymbolTableRecord
100
AcDbLayerTableRecord
  2
METIN
 70
     0
 62
    96
  6
Continuous
370
    -3
390
F
  0
LAYER
  5
79
330
2
100
AcDbSymbolTableRecord
100
AcDbLayerTableRecord
  2
BALON
 70
     0
 62
     5
  6
Continuous
370
    -3
390
F
  0
LAYER
  5
7A
330
2
100
AcDbSymbolTableRecord
100
AcDbLayerTableRecord
  2
VURGU
 70
     0
 62
     7
  6
Continuous
370
    -3
390
F
  0
LAYER
  5
7B
330
2
100
AcDbSymbolTableRecord
100
AcDbLayerTableRecord
  2
SILIK
 70
     0
 62
     7
  6
Continuous
370
    -3
390
F
  0
LAYER
  5
7C
330
2
100
AcDbSymbolTableRecord
100
AcDbLayerTableRecord
  2
MODEL
 70
     0
 62
     7
  6
Continuous
370
    -3
390
F
  0
LAYER
  5
7D
330
2
100
AcDbSymbolTableRecord
100
AcDbLayerTableRecord
  2
DETAYLANDıRMA
 70
     0
 62
   190
  6
Continuous
370
    -3
390
F
  0
LAYER
  5
7E
330
2
100
AcDbSymbolTableRecord
100
AcDbLayerTableRecord
  2
TOLERANS
 70
     0
 62
   230
  6
Continuous
370
    -3
390
F
  0
LAYER
  5
7F
330
2
100
AcDbSymbolTableRecord
100
AcDbLayerTableRecord
  2
MERKEZ_CIZGILERI
 70
     0
 62
    30
  6
Continuous
370
    -3
390
F
  0
LAYER
  5
80
330
2
100
AcDbSymbolTableRecord
100
AcDbLayerTableRecord
  2
KESIT-DETAY_CIZGILERI
 70
     0
 62
     7
  6
Continuous
370
    -3
390
F
  0
LAYER
  5
81
330
2
100
AcDbSymbolTableRecord
100
AcDbLayerTableRecord
  2
\U+041E\U+0421\U+0415\U+0412\U+042B\U+0415
 70
     0
 62
     7
  6
Continuous
370
    -3
390
F
  0
LAYER
  5
82
330
2
100
AcDbSymbolTableRecord
100
AcDbLayerTableRecord
  2
\U+0412\U+041E\U+0414\U+042F\U+041D\U+042B\U+0415_\U+0417\U+041D\U+0410\U+041A\U+0418
 70
     0
 62
    11
  6
Continuous
370
    -3
390
F
  0
ENDTAB
  0
TABLE
  2
STYLE
  5
3
330
0
100
AcDbSymbolTable
 70
     1
  0
STYLE
  5
11
330
3
100
AcDbSymbolTableRecord
100
AcDbTextStyleTableRecord
  2
Standard
 70
     0
 40
0.0
 41
1.0
 50
0.0
 71
     0
 42
3.5
  3
txt
  4

  0
ENDTAB
  0
TABLE
  2
VIEW
  5
6
330
0
100
AcDbSymbolTable
 70
     0
  0
ENDTAB
  0
TABLE
  2
UCS
  5
7
330
0
100
AcDbSymbolTable
 70
     0
  0
ENDTAB
  0
TABLE
  2
APPID
  5
9
330
0
100
AcDbSymbolTable
 70
     1
  0
APPID
  5
12
330
9
100
AcDbSymbolTableRecord
100
AcDbRegAppTableRecord
  2
ACAD
 70
     0
  0
ENDTAB
  0
TABLE
  2
DIMSTYLE
  5
A
330
0
100
AcDbSymbolTable
 70
     1
100
AcDbDimStyleTable
  0
DIMSTYLE
105
27
330
A
100
AcDbSymbolTableRecord
100
AcDbDimStyleTableRecord
  2
ISO-25
 70
     0
 41
2.5
 42
0.625
 43
3.75
 44
1.25
 73
     0
 74
     0
 77
     1
 78
     8
140
2.5
141
2.5
143
0.0393700787
147
0.625
171
     3
172
     1
178
     0
271
     2
272
     2
274
     3
278
    44
283
     0
284
     8
340
11
  0
ENDTAB
  0
TABLE
  2
BLOCK_RECORD
  5
1
330
0
100
AcDbSymbolTable
 70
     2
  0
BLOCK_RECORD
  5
1F
330
1
100
AcDbSymbolTableRecord
100
AcDbBlockTableRecord
  2
*Model_Space
340
22
  0
BLOCK_RECORD
  5
1B
330
1
100
AcDbSymbolTableRecord
100
AcDbBlockTableRecord
  2
*Paper_Space
340
1E
  0
BLOCK_RECORD
  5
23
330
1
100
AcDbSymbolTableRecord
100
AcDbBlockTableRecord
  2
*Paper_Space0
340
26
  0
BLOCK_RECORD
  5
8E
330
1
100
AcDbSymbolTableRecord
100
AcDbBlockTableRecord
  2
SW_CENTERMARKSYMBOL_0
340
0
102
{BLKREFS
331
99
102
}
  0
ENDTAB
  0
ENDSEC
  0
SECTION
  2
BLOCKS
  0
BLOCK
  5
20
330
1F
100
AcDbEntity
  8
0
100
AcDbBlockBegin
  2
*Model_Space
 70
     0
 10
0.0
 20
0.0
 30
0.0
  3
*Model_Space
  1

  0
ENDBLK
  5
21
330
1F
100
AcDbEntity
  8
0
100
AcDbBlockEnd
  0
BLOCK
  5
1C
330
1B
100
AcDbEntity
 67
     1
  8
0
100
AcDbBlockBegin
  2
*Paper_Space
 70
     0
 10
0.0
 20
0.0
 30
0.0
  3
*Paper_Space
  1

  0
ENDBLK
  5
1D
330
1B
100
AcDbEntity
 67
     1
  8
0
100
AcDbBlockEnd
  0
BLOCK
  5
24
330
23
100
AcDbEntity
  8
0
100
AcDbBlockBegin
  2
*Paper_Space0
 70
     0
 10
0.0
 20
0.0
 30
0.0
  3
*Paper_Space0
  1

  0
ENDBLK
  5
25
330
23
100
AcDbEntity
  8
0
100
AcDbBlockEnd
  0
BLOCK
  5
8F
330
8E
100
AcDbEntity
  8
0
100
AcDbBlockBegin
  2
SW_CENTERMARKSYMBOL_0
 70
     0
 10
0.0
 20
0.0
 30
0.0
  3
SW_CENTERMARKSYMBOL_0
  1

  0
LINE
  5
91
330
8E
100
AcDbEntity
  8
FORMAT
 62
     0
100
AcDbLine
 10
0.0
 20
0.0
 30
0.0
 11
0.0
 21
2.5
 31
0.0
  0
LINE
  5
92
330
8E
100
AcDbEntity
  8
FORMAT
 62
     0
100
AcDbLine
 10
0.0
 20
0.0
 30
0.0
 11
-2.5
 21
0.0
 31
0.0
  0
LINE
  5
93
330
8E
100
AcDbEntity
  8
FORMAT
 62
     0
100
AcDbLine
 10
0.0
 20
0.0
 30
0.0
 11
0.0
 21
-2.5
 31
0.0
  0
LINE
  5
94
330
8E
100
AcDbEntity
  8
FORMAT
 62
     0
100
AcDbLine
 10
0.0
 20
0.0
 30
0.0
 11
2.5
 21
0.0
 31
0.0
  0
LINE
  5
95
330
8E
100
AcDbEntity
  8
FORMAT
 62
     0
100
AcDbLine
 10
0.0
 20
5.0
 30
0.0
 11
0.0
 21
27.5
 31
0.0
  0
LINE
  5
96
330
8E
100
AcDbEntity
  8
FORMAT
 62
     0
100
AcDbLine
 10
-5.0
 20
0.0
 30
0.0
 11
-27.5
 21
0.0
 31
0.0
  0
LINE
  5
97
330
8E
100
AcDbEntity
  8
FORMAT
 62
     0
100
AcDbLine
 10
0.0
 20
-5.0
 30
0.0
 11
0.0
 21
-27.5
 31
0.0
  0
LINE
  5
98
330
8E
100
AcDbEntity
  8
FORMAT
 62
     0
100
AcDbLine
 10
5.0
 20
0.0
 30
0.0
 11
27.5
 21
0.0
 31
0.0
  0
ENDBLK
  5
90
330
8E
100
AcDbEntity
  8
0
100
AcDbBlockEnd
  0
ENDSEC
  0
SECTION
  2
ENTITIES
  0
CIRCLE
  5
83
330
1F
100
AcDbEntity
  8
0
  6
Continuous
 62
     7
370
    25
100
AcDbCircle
 10
139.8323425481
 20
108.7440552885
 30
0.0
 40
20.40000000000001
  0
CIRCLE
  5
84
330
1F
100
AcDbEntity
  8
0
  6
Continuous
 62
     7
370
    25
100
AcDbCircle
 10
139.8323425481
 20
108.7440552885
 30
0.0
 40
25.00000000000001
  0
CIRCLE
  5
85
330
1F
100
AcDbEntity
  8
0
  6
Continuous
 62
     7
370
    25
100
AcDbCircle
 10
139.8323425481
 20
108.7440552885
 30
0.0
 40
17.00000000000003
  0
CIRCLE
  5
86
330
1F
100
AcDbEntity
  8
0
  6
Continuous
 62
     7
370
    25
100
AcDbCircle
 10
139.8323425481
 20
108.7440552885
 30
0.0
 40
27.00000000000001
  0
CIRCLE
  5
87
330
1F
100
AcDbEntity
  8
0
  6
Continuous
 62
     7
370
    25
100
AcDbCircle
 10
139.8323425481
 20
108.7440552885
 30
0.0
 40
27.50000000000001
  0
LINE
  5
88
330
1F
100
AcDbEntity
  8
0
  6
Continuous
 62
     7
370
    25
100
AcDbLine
 10
169.8323425481
 20
91.4235472128
 30
0.0
 11
169.8323425481
 21
126.0645633642
 31
0.0
  0
LINE
  5
89
330
1F
100
AcDbEntity
  8
0
  6
Continuous
 62
     7
370
    25
100
AcDbLine
 10
139.8323425481
 20
74.1030391371
 30
0.0
 11
169.8323425481
 21
91.4235472128
 31
0.0
  0
LINE
  5
8A
330
1F
100
AcDbEntity
  8
0
  6
Continuous
 62
     7
370
    25
100
AcDbLine
 10
109.8323425481
 20
126.0645633642
 30
0.0
 11
109.8323425481
 21
91.4235472128
 31
0.0
  0
LINE
  5
8B
330
1F
100
AcDbEntity
  8
0
  6
Continuous
 62
     7
370
    25
100
AcDbLine
 10
169.8323425481
 20
126.0645633642
 30
0.0
 11
139.8323425481
 21
143.3850714398
 31
0.0
  0
LINE
  5
8C
330
1F
100
AcDbEntity
  8
0
  6
Continuous
 62
     7
370
    25
100
AcDbLine
 10
139.8323425481
 20
143.3850714398
 30
0.0
 11
109.8323425481
 21
126.0645633642
 31
0.0
  0
LINE
  5
8D
330
1F
100
AcDbEntity
  8
0
  6
Continuous
 62
     7
370
    25
100
AcDbLine
 10
109.8323425481
 20
91.4235472128
 30
0.0
 11
139.8323425481
 21
74.1030391371
 31
0.0
  0
INSERT
  5
99
330
1F
100
AcDbEntity
  8
FORMAT
 62
     7
100
AcDbBlockReference
  2
SW_CENTERMARKSYMBOL_0
 10
139.8323425481
 20
108.7440552885
 30
0.0
  0
LINE
  5
9A
330
1F
100
AcDbEntity
  8
0
  6
Continuous
 62
     7
370
    25
100
AcDbLine
 10
167.3323425481
 20
194.4591403919
 30
0.0
 11
167.3323425481
 21
219.9591403919
 31
0.0
  0
LINE
  5
9B
330
1F
100
AcDbEntity
  8
0
  6
Continuous
 62
     7
370
    25
100
AcDbLine
 10
112.3323425481
 20
219.9591403919
 30
0.0
 11
112.3323425481
 21
194.4591403919
 31
0.0
  0
ARC
  5
9C
330
1F
100
AcDbEntity
  8
0
  6
Continuous
 62
     7
370
    25
100
AcDbCircle
 10
166.8323425481
 20
219.9591403919
 30
0.0
 40
0.5
100
AcDbArc
 50
0.0
 51
90.0
  0
ARC
  5
9D
330
1F
100
AcDbEntity
  8
0
  6
Continuous
 62
     7
370
    25
100
AcDbCircle
 10
112.8323425481
 20
219.9591403919
 30
0.0
 40
0.5
100
AcDbArc
 50
90.0
 51
180.0
  0
LINE
  5
9E
330
1F
100
AcDbEntity
  8
0
  6
Continuous
 62
     7
370
    25
100
AcDbLine
 10
166.8323425481
 20
173.4591403919
 30
0.0
 11
166.8323425481
 21
184.4591403919
 31
0.0
  0
LINE
  5
9F
330
1F
100
AcDbEntity
  8
0
  6
Continuous
 62
     7
370
    25
100
AcDbLine
 10
112.8323425481
 20
184.4591403919
 30
0.0
 11
112.8323425481
 21
173.4591403919
 31
0.0
  0
LINE
  5
A0
330
1F
100
AcDbEntity
  8
0
  6
Continuous
 62
     7
370
    25
100
AcDbLine
 10
164.8323425481
 20
220.4591403919
 30
0.0
 11
164.8323425481
 21
284.4591403919
 31
0.0
  0
LINE
  5
A1
330
1F
100
AcDbEntity
  8
0
  6
Continuous
 62
     7
370
    25
100
AcDbLine
 10
114.8323425481
 20
284.4591403919
 30
0.0
 11
114.8323425481
 21
220.4591403919
 31
0.0
  0
LINE
  5
A2
330
1F
100
AcDbEntity
  8
0
  6
Continuous
 62
     7
370
    25
100
AcDbLine
 10
139.8323425481
 20
194.4591403919
 30
0.0
 11
139.8323425481
 21
184.4591403919
 31
0.0
  0
LINE
  5
A3
330
1F
100
AcDbEntity
  8
0
  6
Continuous
 62
     7
370
    25
100
AcDbLine
 10
139.8323425481
 20
194.4591403919
 30
0.0
 11
169.8323425481
 21
194.4591403919
 31
0.0
  0
LINE
  5
A4
330
1F
100
AcDbEntity
  8
0
  6
Continuous
 62
     7
370
    25
100
AcDbLine
 10
169.8323425481
 20
194.4591403919
 30
0.0
 11
169.8323425481
 21
184.4591403919
 31
0.0
  0
LINE
  5
A5
330
1F
100
AcDbEntity
  8
0
  6
Continuous
 62
     7
370
    25
100
AcDbLine
 10
139.8323425481
 20
184.4591403919
 30
0.0
 11
169.8323425481
 21
184.4591403919
 31
0.0
  0
LINE
  5
A6
330
1F
100
AcDbEntity
  8
0
  6
Continuous
 62
     7
370
    25
100
AcDbLine
 10
109.8323425481
 20
194.4591403919
 30
0.0
 11
109.8323425481
 21
184.4591403919
 31
0.0
  0
LINE
  5
A7
330
1F
100
AcDbEntity
  8
0
  6
Continuous
 62
     7
370
    25
100
AcDbLine
 10
109.8323425481
 20
194.4591403919
 30
0.0
 11
139.8323425481
 21
194.4591403919
 31
0.0
  0
LINE
  5
A8
330
1F
100
AcDbEntity
  8
0
  6
Continuous
 62
     7
370
    25
100
AcDbLine
 10
109.8323425481
 20
184.4591403919
 30
0.0
 11
139.8323425481
 21
184.4591403919
 31
0.0
  0
LINE
  5
A9
330
1F
100
AcDbEntity
  8
0
  6
Continuous
 62
     7
370
    25
100
AcDbLine
 10
112.8323425481
 20
220.4591403919
 30
0.0
 11
166.8323425481
 21
220.4591403919
 31
0.0
  0
LINE
  5
AA
330
1F
100
AcDbEntity
  8
0
  6
Continuous
 62
     7
370
    25
100
AcDbLine
 10
166.8323425481
 20
173.4591403919
 30
0.0
 11
112.8323425481
 21
173.4591403919
 31
0.0
  0
LINE
  5
AB
330
1F
100
AcDbEntity
  8
0
  6
Continuous
 62
     7
370
    25
100
AcDbLine
 10
164.8323425481
 20
284.4591403919
 30
0.0
 11
114.8323425481
 21
284.4591403919
 31
0.0
  0
LINE
  5
AC
330
1F
100
AcDbEntity
  8
0
  6
Continuous
 62
     1
370
    25
100
AcDbLine
 10
167.3323425481
 20
219.9591403919
 30
0.0
 11
112.3323425481
 21
219.9591403919
 31
0.0
  0
LINE
  5
AD
330
1F
100
AcDbEntity
  8
0
  6
Continuous
 62
     7
370
    25
100
AcDbLine
 10
260.5459268214
 20
81.2440552885
 30
0.0
 11
286.0459268214
 21
81.2440552885
 31
0.0
  0
LINE
  5
AE
330
1F
100
AcDbEntity
  8
0
  6
Continuous
 62
     7
370
    25
100
AcDbLine
 10
286.0459268214
 20
136.2440552885
 30
0.0
 11
260.5459268214
 21
136.2440552885
 31
0.0
  0
ARC
  5
AF
330
1F
100
AcDbEntity
  8
0
  6
Continuous
 62
     7
370
    25
100
AcDbCircle
 10
286.0459268214
 20
81.7440552885
 30
0.0
 40
0.5000000000000142
100
AcDbArc
 50
270.0
 51
0.0
  0
ARC
  5
B0
330
1F
100
AcDbEntity
  8
0
  6
Continuous
 62
     7
370
    25
100
AcDbCircle
 10
286.0459268214
 20
135.7440552885
 30
0.0
 40
0.5
100
AcDbArc
 50
0.0
 51
90.0
  0
LINE
  5
B1
330
1F
100
AcDbEntity
  8
0
  6
Continuous
 62
     7
370
    25
100
AcDbLine
 10
239.5459268214
 20
81.7440552885
 30
0.0
 11
250.5459268214
 21
81.7440552885
 31
0.0
  0
LINE
  5
B2
330
1F
100
AcDbEntity
  8
0
  6
Continuous
 62
     7
370
    25
100
AcDbLine
 10
250.5459268214
 20
135.7440552885
 30
0.0
 11
239.5459268214
 21
135.7440552885
 31
0.0
  0
LINE
  5
B3
330
1F
100
AcDbEntity
  8
0
  6
Continuous
 62
     7
370
    25
100
AcDbLine
 10
286.5459268214
 20
83.7440552885
 30
0.0
 11
350.5459268214
 21
83.7440552885
 31
0.0
  0
LINE
  5
B4
330
1F
100
AcDbEntity
  8
0
  6
Continuous
 62
     7
370
    25
100
AcDbLine
 10
350.5459268214
 20
133.7440552885
 30
0.0
 11
286.5459268214
 21
133.7440552885
 31
0.0
  0
LINE
  5
B5
330
1F
100
AcDbEntity
  8
0
  6
Continuous
 62
     7
370
    25
100
AcDbLine
 10
260.5459268214
 20
126.0645633642
 30
0.0
 11
250.5459268214
 21
126.0645633642
 31
0.0
  0
LINE
  5
B6
330
1F
100
AcDbEntity
  8
0
  6
Continuous
 62
     7
370
    25
100
AcDbLine
 10
260.5459268214
 20
126.0645633642
 30
0.0
 11
260.5459268214
 21
91.4235472128
 31
0.0
  0
LINE
  5
B7
330
1F
100
AcDbEntity
  8
0
  6
Continuous
 62
     7
370
    25
100
AcDbLine
 10
260.5459268214
 20
91.4235472128
 30
0.0
 11
250.5459268214
 21
91.4235472128
 31
0.0
  0
LINE
  5
B8
330
1F
100
AcDbEntity
  8
0
  6
Continuous
 62
     7
370
    25
100
AcDbLine
 10
250.5459268214
 20
126.0645633642
 30
0.0
 11
250.5459268214
 21
91.4235472128
 31
0.0
  0
LINE
  5
B9
330
1F
100
AcDbEntity
  8
0
  6
Continuous
 62
     7
370
    25
100
AcDbLine
 10
260.5459268214
 20
91.4235472128
 30
0.0
 11
260.5459268214
 21
74.1030391371
 31
0.0
  0
LINE
  5
BA
330
1F
100
AcDbEntity
  8
0
  6
Continuous
 62
     7
370
    25
100
AcDbLine
 10
260.5459268214
 20
74.1030391371
 30
0.0
 11
250.5459268214
 21
74.1030391371
 31
0.0
  0
LINE
  5
BB
330
1F
100
AcDbEntity
  8
0
  6
Continuous
 62
     7
370
    25
100
AcDbLine
 10
250.5459268214
 20
91.4235472128
 30
0.0
 11
250.5459268214
 21
74.1030391371
 31
0.0
  0
LINE
  5
BC
330
1F
100
AcDbEntity
  8
0
  6
Continuous
 62
     7
370
    25
100
AcDbLine
 10
260.5459268214
 20
143.3850714398
 30
0.0
 11
250.5459268214
 21
143.3850714398
 31
0.0
  0
LINE
  5
BD
330
1F
100
AcDbEntity
  8
0
  6
Continuous
 62
     7
370
    25
100
AcDbLine
 10
260.5459268214
 20
143.3850714398
 30
0.0
 11
260.5459268214
 21
126.0645633642
 31
0.0
  0
LINE
  5
BE
330
1F
100
AcDbEntity
  8
0
  6
Continuous
 62
     7
370
    25
100
AcDbLine
 10
250.5459268214
 20
143.3850714398
 30
0.0
 11
250.5459268214
 21
126.0645633642
 31
0.0
  0
LINE
  5
BF
330
1F
100
AcDbEntity
  8
0
  6
Continuous
 62
     7
370
    25
100
AcDbLine
 10
286.5459268214
 20
108.7440552885
 30
0.0
 11
286.5459268214
 21
135.7440552885
 31
0.0
  0
LINE
  5
C0
330
1F
100
AcDbEntity
  8
0
  6
Continuous
 62
     7
370
    25
100
AcDbLine
 10
286.5459268214
 20
81.7440552885
 30
0.0
 11
286.5459268214
 21
108.7440552885
 31
0.0
  0
LINE
  5
C1
330
1F
100
AcDbEntity
  8
0
  6
Continuous
 62
     7
370
    25
100
AcDbLine
 10
239.5459268214
 20
108.7440552885
 30
0.0
 11
239.5459268214
 21
135.7440552885
 31
0.0
  0
LINE
  5
C2
330
1F
100
AcDbEntity
  8
0
  6
Continuous
 62
     7
370
    25
100
AcDbLine
 10
239.5459268214
 20
81.7440552885
 30
0.0
 11
239.5459268214
 21
108.7440552885
 31
0.0
  0
LINE
  5
C3
330
1F
100
AcDbEntity
  8
0
  6
Continuous
 62
     7
370
    25
100
AcDbLine
 10
350.5459268214
 20
108.7440552885
 30
0.0
 11
350.5459268214
 21
133.7440552885
 31
0.0
  0
LINE
  5
C4
330
1F
100
AcDbEntity
  8
0
  6
Continuous
 62
     7
370
    25
100
AcDbLine
 10
350.5459268214
 20
83.7440552885
 30
0.0
 11
350.5459268214
 21
108.7440552885
 31
0.0
  0
LINE
  5
C5
330
1F
100
AcDbEntity
  8
0
  6
Continuous
 62
     1
370
    25
100
AcDbLine
 10
286.0459268214
 20
108.7440552885
 30
0.0
 11
286.0459268214
 21
136.2440552885
 31
0.0
  0
LINE
  5
C6
330
1F
100
AcDbEntity
  8
0
  6
Continuous
 62
     1
370
    25
100
AcDbLine
 10
286.0459268214
 20
81.2440552885
 30
0.0
 11
286.0459268214
 21
108.7440552885
 31
0.0
  0
LINE
  5
C7
330
1F
100
AcDbEntity
  8
0
  6
Continuous
 62
     7
370
    25
100
AcDbLine
 10
29.2976448226
 20
136.2440552885
 30
0.0
 11
3.7976448226
 21
136.2440552885
 31
0.0
  0
LINE
  5
C8
330
1F
100
AcDbEntity
  8
0
  6
Continuous
 62
     7
370
    25
100
AcDbLine
 10
3.7976448226
 20
81.2440552885
 30
0.0
 11
29.2976448226
 21
81.2440552885
 31
0.0
  0
ARC
  5
C9
330
1F
100
AcDbEntity
  8
0
  6
Continuous
 62
     7
370
    25
100
AcDbCircle
 10
3.7976448226
 20
135.7440552885
 30
0.0
 40
0.5000000000000004
100
AcDbArc
 50
90.0
 51
180.0
  0
ARC
  5
CA
330
1F
100
AcDbEntity
  8
0
  6
Continuous
 62
     7
370
    25
100
AcDbCircle
 10
3.7976448226
 20
81.7440552885
 30
0.0
 40
0.5000000000000142
100
AcDbArc
 50
180.0
 51
270.0
  0
LINE
  5
CB
330
1F
100
AcDbEntity
  8
0
  6
Continuous
 62
     7
370
    25
100
AcDbLine
 10
50.2976448226
 20
135.7440552885
 30
0.0
 11
39.2976448226
 21
135.7440552885
 31
0.0
  0
LINE
  5
CC
330
1F
100
AcDbEntity
  8
0
  6
Continuous
 62
     7
370
    25
100
AcDbLine
 10
39.2976448226
 20
81.7440552885
 30
0.0
 11
50.2976448226
 21
81.7440552885
 31
0.0
  0
LINE
  5
CD
330
1F
100
AcDbEntity
  8
0
  6
Continuous
 62
     7
370
    25
100
AcDbLine
 10
3.2976448226
 20
133.7440552885
 30
0.0
 11
-60.7023551774
 21
133.7440552885
 31
0.0
  0
LINE
  5
CE
330
1F
100
AcDbEntity
  8
0
  6
Continuous
 62
     7
370
    25
100
AcDbLine
 10
-60.7023551774
 20
83.7440552885
 30
0.0
 11
3.2976448226
 21
83.7440552885
 31
0.0
  0
LINE
  5
CF
330
1F
100
AcDbEntity
  8
0
  6
Continuous
 62
     7
370
    25
100
AcDbLine
 10
29.2976448226
 20
91.4235472128
 30
0.0
 11
39.2976448226
 21
91.4235472128
 31
0.0
  0
LINE
  5
D0
330
1F
100
AcDbEntity
  8
0
  6
Continuous
 62
     7
370
    25
100
AcDbLine
 10
29.2976448226
 20
91.4235472128
 30
0.0
 11
29.2976448226
 21
126.0645633642
 31
0.0
  0
LINE
  5
D1
330
1F
100
AcDbEntity
  8
0
  6
Continuous
 62
     7
370
    25
100
AcDbLine
 10
29.2976448226
 20
126.0645633642
 30
0.0
 11
39.2976448226
 21
126.0645633642
 31
0.0
  0
LINE
  5
D2
330
1F
100
AcDbEntity
  8
0
  6
Continuous
 62
     7
370
    25
100
AcDbLine
 10
39.2976448226
 20
91.4235472128
 30
0.0
 11
39.2976448226
 21
126.0645633642
 31
0.0
  0
LINE
  5
D3
330
1F
100
AcDbEntity
  8
0
  6
Continuous
 62
     7
370
    25
100
AcDbLine
 10
29.2976448226
 20
126.0645633642
 30
0.0
 11
29.2976448226
 21
143.3850714398
 31
0.0
  0
LINE
  5
D4
330
1F
100
AcDbEntity
  8
0
  6
Continuous
 62
     7
370
    25
100
AcDbLine
 10
29.2976448226
 20
143.3850714398
 30
0.0
 11
39.2976448226
 21
143.3850714398
 31
0.0
  0
LINE
  5
D5
330
1F
100
AcDbEntity
  8
0
  6
Continuous
 62
     7
370
    25
100
AcDbLine
 10
39.2976448226
 20
126.0645633642
 30
0.0
 11
39.2976448226
 21
143.3850714398
 31
0.0
  0
LINE
  5
D6
330
1F
100
AcDbEntity
  8
0
  6
Continuous
 62
     7
370
    25
100
AcDbLine
 10
29.2976448226
 20
74.1030391371
 30
0.0
 11
39.2976448226
 21
74.1030391371
 31
0.0
  0
LINE
  5
D7
330
1F
100
AcDbEntity
  8
0
  6
Continuous
 62
     7
370
    25
100
AcDbLine
 10
29.2976448226
 20
74.1030391371
 30
0.0
 11
29.2976448226
 21
91.4235472128
 31
0.0
  0
LINE
  5
D8
330
1F
100
AcDbEntity
  8
0
  6
Continuous
 62
     7
370
    25
100
AcDbLine
 10
39.2976448226
 20
74.1030391371
 30
0.0
 11
39.2976448226
 21
91.4235472128
 31
0.0
  0
LINE
  5
D9
330
1F
100
AcDbEntity
  8
0
  6
Continuous
 62
     7
370
    25
100
AcDbLine
 10
3.2976448226
 20
135.7440552885
 30
0.0
 11
3.2976448226
 21
81.7440552885
 31
0.0
  0
LINE
  5
DA
330
1F
100
AcDbEntity
  8
0
  6
Continuous
 62
     7
370
    25
100
AcDbLine
 10
50.2976448226
 20
135.7440552885
 30
0.0
 11
50.2976448226
 21
81.7440552885
 31
0.0
  0
LINE
  5
DB
330
1F
100
AcDbEntity
  8
0
  6
Continuous
 62
     7
370
    25
100
AcDbLine
 10
-60.7023551774
 20
133.7440552885
 30
0.0
 11
-60.7023551774
 21
83.7440552885
 31
0.0
  0
LINE
  5
DC
330
1F
100
AcDbEntity
  8
0
  6
Continuous
 62
     1
370
    25
100
AcDbLine
 10
3.7976448226
 20
136.2440552885
 30
0.0
 11
3.7976448226
 21
81.2440552885
 31
0.0
  0
LINE
  5
DD
330
1F
100
AcDbEntity
  8
0
  6
Continuous
 62
     7
370
    25
100
AcDbLine
 10
293.2561784982
 20
7.1472063042
 30
0.0
 11
248.0013445023
 21
33.2722658825
 31
0.0
  0
LINE
  5
DE
330
1F
100
AcDbEntity
  8
0
  6
Continuous
 62
     7
370
    25
100
AcDbLine
 10
223.0033761864
 20
-10.0301772365
 30
0.0
 11
268.2582101823
 21
-36.1552368149
 31
0.0
  0
SPLINE
  5
DF
330
1F
100
AcDbEntity
  8
0
  6
Continuous
 62
     7
370
    25
100
AcDbSpline
210
0.0
220
0.0
230
1.0
 70
     8
 71
     3
 72
    14
 73
    10
 74
     0
 42
0.00000001
 43
0.00000001
 40
0.0
 40
0.0
 40
0.0
 40
0.0
 40
0.0180942793996892
 40
0.2100840232475959
 40
0.4024651187338368
 40
0.5953377791568912
 40
0.7887398845643144
 40
0.9826538585976542
 40
1.0
 40
1.0
 40
1.0
 40
1.0
 10
292.8505054261935
 20
9.975211439988113
 30
0.0
 10
292.8229953028663
 20
9.98488889209479
 30
0.0
 10
292.5035884195657
 20
10.09724915958317
 30
0.0
 10
291.8570134471997
 20
10.23731623064893
 30
0.0
 10
290.9114016611895
 20
10.38796751433934
 30
0.0
 10
289.9305868929026
 20
10.45139811484783
 30
0.0
 10
288.9200386553491
 20
10.42708061188053
 30
0.0
 10
288.2041216595509
 20
10.37516122987667
 30
0.0
 10
287.8210320577484
 20
10.30848280780208
 30
0.0
 10
287.7895773442597
 20
10.30300797723405
 30
0.0
  0
SPLINE
  5
E0
330
1F
100
AcDbEntity
  8
0
  6
Continuous
 62
     7
370
    25
100
AcDbSpline
210
0.0
220
0.0
230
1.0
 70
     8
 71
     3
 72
    13
 73
     9
 74
     0
 42
0.00000001
 43
0.00000001
 40
0.0
 40
0.0
 40
0.0
 40
0.0
 40
0.0391860009348118
 40
0.2405086252276193
 40
0.4414315643022089
 40
0.6418652844956626
 40
0.8417453003509644
 40
0.9999999999999999
 40
0.9999999999999999
 40
0.9999999999999999
 40
0.9999999999999999
 10
262.7957966122369
 20
-33.00185258251653
 30
0.0
 10
262.8201186698869
 20
-33.06715235957456
 30
0.0
 10
262.9693981193984
 20
-33.46793731423288
 30
0.0
 10
263.3028707206576
 20
-34.14701623559002
 30
0.0
 10
263.7970797989764
 20
-35.03202770806005
 30
0.0
 10
264.3550530427798
 20
-35.84314516748377
 30
0.0
 10
264.9187687232587
 20
-36.54295441262259
 30
0.0
 10
265.3213074051671
 20
-36.93754600649704
 30
0.0
 10
265.4991835937762
 20
-37.11191048854591
 30
0.0
  0
LINE
  5
E1
330
1F
100
AcDbEntity
  8
0
  6
Continuous
 62
     7
370
    25
100
AcDbLine
 10
312.8908532249
 20
-1.3009769936
 30
0.0
 11
294.8596303046
 21
9.1082264322
 31
0.0
  0
LINE
  5
E2
330
1F
100
AcDbEntity
  8
0
  6
Continuous
 62
     7
370
    25
100
AcDbLine
 10
267.3618651571
 20
-38.5244609988
 30
0.0
 11
285.3930880774
 21
-48.9336644245
 31
0.0
  0
LINE
  5
E3
330
1F
100
AcDbEntity
  8
0
  6
Continuous
 62
     7
370
    25
100
AcDbLine
 10
327.4901159467
 20
-10.3062865989
 30
0.0
 11
327.4262418986
 21
-10.2694128959
 31
0.0
  0
LINE
  5
E4
330
1F
100
AcDbEntity
  8
0
  6
Continuous
 62
     7
370
    25
100
AcDbLine
 10
300.2888149226
 20
-56.9554498643
 30
0.0
 11
300.4923101655
 21
-57.0729251675
 31
0.0
  0
LWPOLYLINE
  5
E5
330
1F
100
AcDbEntity
  8
0
  6
Continuous
 62
     7
370
    25
100
AcDbPolyline
 90
      101
 70
   128
 43
0.0
 10
217.8246908147
 20
1.4159429252
 10
217.8595736574
 20
2.7178559065
 10
217.964084519
 20
4.0549057051
 10
218.1378109428
 20
5.4218155961
 10
218.3800673099
 20
6.8131910108
 10
218.6898975453
 20
8.223540826
 10
219.0660788904
 20
9.6472990353
 10
219.5071267294
 20
11.0788467156
 10
220.0113004479
 20
12.5125342021
 10
220.5766103027
 20
13.9427033853
 10
221.2008252739
 20
15.3637100409
 10
221.8814818703
 20
16.7699461047
 10
222.6158938513
 20
18.1558618056
 10
223.4011628283
 20
19.5159875673
 10
224.2341897033
 20
20.8449555948
 10
225.1116868999
 20
22.1375210586
 10
226.0301913376
 20
23.3885827932
 10
226.9860780989
 20
24.5932034296
 10
227.9755747355
 20
25.7466288804
 10
228.9947761562
 20
26.8443071023
 10
230.0396600387
 20
27.8819060609
 10
231.1061027037
 20
28.855330827
 10
232.1898953891
 20
29.760739738
 10
233.2867608603
 20
30.5945595583
 10
234.3923702905
 20
31.3534995822
 10
235.5023603444
 20
32.0345646201
 10
236.6123503982
 20
32.6350668195
 10
237.7179598284
 20
33.1526362724
 10
238.8148252996
 20
33.5852303687
 10
239.898617985
 20
33.9311418573
 10
240.96506065
 20
34.1890055833
 10
242.0099445325
 20
34.3578038766
 10
243.0291459532
 20
34.4368705674
 10
244.0186425898
 20
34.4258936155
 10
244.9745293511
 20
34.3249163421
 10
245.8930337888
 20
34.1343372581
 10
246.7705309854
 20
33.8549084924
 10
247.6035578605
 20
33.4877328224
 10
248.3888268374
 20
33.0342593228
 10
249.1232388184
 20
32.4962776465
 10
249.8038954148
 20
31.8759109611
 10
250.428110386
 20
31.1756075708
 10
250.9934202408
 20
30.3981312529
 10
251.4975939594
 20
29.5465503513
 10
251.9386417983
 20
28.6242256668
 10
252.3148231435
 20
27.6347971936
 10
252.6246533788
 20
26.5821697538
 10
252.8669097459
 20
25.470497587
 10
253.0406361697
 20
24.3041679554
 10
253.1451470313
 20
23.0877838292
 10
253.180029874
 20
21.8261457208
 10
253.1451470313
 20
20.5242327394
 10
253.0406361697
 20
19.1871829408
 10
252.8669097459
 20
17.8202730498
 10
252.6246533788
 20
16.4288976351
 10
252.3148231435
 20
15.01854782
 10
251.9386417983
 20
13.5947896106
 10
251.4975939594
 20
12.1632419304
 10
250.9934202408
 20
10.7295544439
 10
250.428110386
 20
9.2993852606
 10
249.8038954148
 20
7.8783786051
 10
249.1232388184
 20
6.4721425412
 10
248.3888268374
 20
5.0862268404
 10
247.6035578605
 20
3.7261010787
 10
246.7705309854
 20
2.3971330511
 10
245.8930337888
 20
1.1045675873
 10
244.9745293511
 20
-0.1464941473
 10
244.0186425898
 20
-1.3511147837
 10
243.0291459532
 20
-2.5045402344
 10
242.0099445325
 20
-3.6022184564
 10
240.96506065
 20
-4.6398174149
 10
239.898617985
 20
-5.6132421811
 10
238.8148252996
 20
-6.518651092
 10
237.7179598284
 20
-7.3524709124
 10
236.6123503982
 20
-8.1114109363
 10
235.5023603444
 20
-8.7924759742
 10
234.3923702905
 20
-9.3929781735
 10
233.2867608603
 20
-9.9105476264
 10
232.1898953891
 20
-10.3431417228
 10
231.1061027037
 20
-10.6890532113
 10
230.0396600387
 20
-10.9469169374
 10
228.9947761562
 20
-11.1157152307
 10
227.9755747355
 20
-11.1947819214
 10
226.9860780989
 20
-11.1838049696
 10
226.0301913376
 20
-11.0828276961
 10
225.1116868999
 20
-10.8922486122
 10
224.2341897033
 20
-10.6128198464
 10
223.4011628283
 20
-10.2456441764
 10
222.6158938513
 20
-9.7921706769
 10
221.8814818703
 20
-9.2541890005
 10
221.2008252739
 20
-8.6338223152
 10
220.5766103027
 20
-7.9335189248
 10
220.0113004479
 20
-7.1560426069
 10
219.5071267294
 20
-6.3044617054
 10
219.0660788904
 20
-5.3821370209
 10
218.6898975453
 20
-4.3927085477
 10
218.3800673099
 20
-3.3400811079
 10
218.1378109428
 20
-2.2284089411
 10
217.964084519
 20
-1.0620793094
 10
217.8595736574
 20
0.1543048168
 10
217.8246908147
 20
1.4159429252
  0
LWPOLYLINE
  5
E6
330
1F
100
AcDbEntity
  8
0
  6
Continuous
 62
     7
370
    25
100
AcDbPolyline
 90
       52
 70
   128
 43
0.0
 10
293.2561784982
 20
7.1472063042
 10
293.6436608333
 20
6.9091997445
 10
294.3780728143
 20
6.3712180681
 10
295.0587294107
 20
5.7508513828
 10
295.682944382
 20
5.0505479924
 10
296.2482542367
 20
4.2730716745
 10
296.7524279553
 20
3.421490773
 10
297.1934757943
 20
2.4991660885
 10
297.5696571394
 20
1.5097376153
 10
297.8794873747
 20
0.4571101755
 10
298.1217437419
 20
-0.6545619913
 10
298.2954701657
 20
-1.8208916229
 10
298.3999810272
 20
-3.0372757492
 10
298.43486387
 20
-4.2989138576
 10
298.3999810272
 20
-5.6008268389
 10
298.2954701657
 20
-6.9378766375
 10
298.1217437419
 20
-8.3047865285
 10
297.8794873747
 20
-9.6961619432
 10
297.5696571394
 20
-11.1065117584
 10
297.1934757943
 20
-12.5302699677
 10
296.7524279553
 20
-13.9618176479
 10
296.2482542367
 20
-15.3955051344
 10
295.682944382
 20
-16.8256743177
 10
295.0587294107
 20
-18.2466809733
 10
294.3780728143
 20
-19.6529170371
 10
293.6436608333
 20
-21.0388327379
 10
292.8583918564
 20
-22.3989584996
 10
292.0253649814
 20
-23.7279265272
 10
291.1478677847
 20
-25.020491991
 10
290.2293633471
 20
-26.2715537256
 10
289.2734765858
 20
-27.476174362
 10
288.2839799492
 20
-28.6295998128
 10
287.2647785284
 20
-29.7272780347
 10
286.2198946459
 20
-30.7648769932
 10
285.153451981
 20
-31.7383017594
 10
284.0696592956
 20
-32.6437106703
 10
282.9727938243
 20
-33.4775304907
 10
281.8671843941
 20
-34.2364705146
 10
280.7571943403
 20
-34.9175355525
 10
279.6472042865
 20
-35.5180377518
 10
278.5415948563
 20
-36.0356072048
 10
277.444729385
 20
-36.4682013011
 10
276.3609366996
 20
-36.8141127896
 10
275.2944940347
 20
-37.0719765157
 10
274.2496101522
 20
-37.240774809
 10
273.2304087314
 20
-37.3198414998
 10
272.2409120948
 20
-37.3088645479
 10
271.2850253335
 20
-37.2078872744
 10
270.3665208959
 20
-37.0173081905
 10
269.4890236992
 20
-36.7378794247
 10
268.6559968242
 20
-36.3707037548
 10
268.2582101823
 20
-36.1552368149
  0
LWPOLYLINE
  5
E7
330
1F
100
AcDbEntity
  8
0
  6
Continuous
 62
     7
370
    25
100
AcDbPolyline
 90
       91
 70
   128
 43
0.0
 10
221.0773820082
 20
3.2936815824
 10
221.1125205304
 20
4.4759303767
 10
221.2177649057
 20
5.6929894479
 10
221.3926023942
 20
6.9389294066
 10
221.636181205
 20
8.2076801585
 10
221.9473146468
 20
9.4930604775
 10
222.3244869087
 20
10.7888081199
 10
222.7658604454
 20
12.0886103334
 10
223.2692849292
 20
13.3861346123
 10
223.8323077269
 20
14.6750595488
 10
224.4521858478
 20
15.9491056301
 10
225.1258993081
 20
17.2020658317
 10
225.8501658435
 20
18.4278358575
 10
226.6214569003
 20
19.6204438792
 10
227.436014826
 20
20.7740796304
 10
228.2898711763
 20
21.8831227136
 10
229.1788660487
 20
22.9421699824
 10
230.0986683497
 20
23.946061865
 10
231.044796895
 20
24.8899075011
 10
232.0126422413
 20
25.7691085695
 10
232.9974891434
 20
26.5793816911
 10
233.9945395262
 20
27.3167792966
 10
234.9989358605
 20
27.9777088591
 10
236.0057848282
 20
28.5589503961
 10
237.0101811625
 20
29.0576721573
 10
238.0072315453
 20
29.4714444204
 10
238.9920784474
 20
29.7982513286
 10
239.9599237937
 20
30.0365007114
 10
240.906052339
 20
30.1850318418
 10
241.82585464
 20
30.2431210911
 10
242.7148495125
 20
30.2104854542
 10
243.5687058627
 20
30.0872839287
 10
244.3832637884
 20
29.8741167401
 10
245.1545548452
 20
29.5720224175
 10
245.8788213806
 20
29.182472734
 10
246.5525348409
 20
28.7073655366
 10
247.1724129618
 20
28.1490154997
 10
247.7354357595
 20
27.5101428487
 10
248.2388602434
 20
26.7938601067
 10
248.68023378
 20
26.0036569315
 10
249.0574060419
 20
25.1433831134
 10
249.3685394837
 20
24.2172298199
 10
249.6121182946
 20
23.2297091769
 10
249.786955783
 20
22.1856322856
 10
249.8922001583
 20
21.0900857837
 10
249.9273386806
 20
19.9484070636
 10
249.8922001583
 20
18.7661582693
 10
249.786955783
 20
17.5490991981
 10
249.6121182946
 20
16.3031592394
 10
249.3685394837
 20
15.0344084875
 10
249.0574060419
 20
13.7490281685
 10
248.68023378
 20
12.4532805261
 10
248.2388602434
 20
11.1534783125
 10
247.7354357595
 20
9.8559540336
 10
247.1724129618
 20
8.5670290972
 10
246.5525348409
 20
7.2929830159
 10
245.8788213806
 20
6.0400228143
 10
245.1545548452
 20
4.8142527884
 10
244.3832637884
 20
3.6216447667
 10
243.5687058627
 20
2.4680090156
 10
242.7148495125
 20
1.3589659323
 10
241.82585464
 20
0.2999186635
 10
240.906052339
 20
-0.7039732191
 10
239.9599237937
 20
-1.6478188551
 10
238.9920784474
 20
-2.5270199236
 10
238.0072315453
 20
-3.3372930451
 10
237.0101811625
 20
-4.0746906507
 10
236.0057848282
 20
-4.7356202131
 10
234.9989358605
 20
-5.3168617502
 10
233.9945395262
 20
-5.8155835114
 10
232.9974891434
 20
-6.2293557745
 10
232.0126422413
 20
-6.5561626827
 10
231.044796895
 20
-6.7944120655
 10
230.0986683497
 20
-6.9429431959
 10
229.1788660487
 20
-7.0010324451
 10
228.2898711763
 20
-6.9683968082
 10
227.436014826
 20
-6.8451952828
 10
226.6214569003
 20
-6.6320280942
 10
225.8501658435
 20
-6.3299337715
 10
225.1258993081
 20
-5.9403840881
 10
224.4521858478
 20
-5.4652768906
 10
223.8323077269
 20
-4.9069268538
 10
223.2692849292
 20
-4.2680542027
 10
222.7658604454
 20
-3.5517714608
 10
222.3244869087
 20
-2.7615682856
 10
221.9473146468
 20
-1.9012944674
 10
221.636181205
 20
-0.975141174
 10
221.3926023942
 20
0.0123794691
 10
221.2177649057
 20
1.0564563604
 10
221.1125205304
 20
2.1520028623
 10
221.0773820082
 20
3.2936815824
  0
ARC
  5
E8
330
1F
100
AcDbEntity
  8
0
  6
Continuous
 62
     7
370
    25
100
AcDbCircle
 10
290.2196363589
 20
1.0697533757
 30
0.0
 40
9.280751895465022
100
AcDbArc
 50
46.0433627385
 51
73.0795875312
  0
ARC
  5
E9
330
1F
100
AcDbEntity
  8
0
  6
Continuous
 62
     7
370
    25
100
AcDbCircle
 10
272.0128374688
 20
-30.4677834001
 30
0.0
 40
9.3014805949435
100
AcDbArc
 50
226.0603801873
 51
253.8424419308
  0
LWPOLYLINE
  5
EA
330
1F
100
AcDbEntity
  8
0
  6
Continuous
 62
     7
370
    25
100
AcDbPolyline
 90
       54
 70
   128
 43
0.0
 10
312.8908532249
 20
-1.3009769936
 10
313.3964842633
 20
-1.6151731721
 10
314.1619555699
 20
-2.1850244552
 10
314.8736592286
 20
-2.8369674071
 10
315.5290475252
 20
-3.5686682412
 10
316.1257743397
 20
-4.3775076586
 10
316.6617035448
 20
-5.260590224
 10
317.1349166531
 20
-6.2147547309
 10
317.5437196846
 20
-7.2365855182
 10
317.8866492304
 20
-8.3224246968
 10
318.1624776919
 20
-9.4683852442
 10
318.3702176746
 20
-10.6703649192
 10
318.5091255234
 20
-11.9240609464
 10
318.5787039842
 20
-13.2249854194
 10
318.5787039842
 20
-14.5684813662
 10
318.5091255234
 20
-15.9497394202
 10
318.3702176746
 20
-17.3638150358
 10
318.1624776919
 20
-18.8056461894
 10
317.8866492304
 20
-20.2700714997
 10
317.5437196846
 20
-21.7518487041
 10
317.1349166531
 20
-23.2456734249
 10
316.6617035448
 20
-24.7461981571
 10
316.1257743397
 20
-26.2480514118
 10
315.5290475252
 20
-27.745856944
 10
314.8736592286
 20
-29.2342529987
 10
314.1619555699
 20
-30.7079115043
 10
313.3964842633
 20
-32.1615571459
 10
312.5799854975
 20
-33.5899862492
 10
311.7153821263
 20
-34.9880854088
 10
310.8057692052
 20
-36.3508497926
 10
309.8544029124
 20
-37.6734010578
 10
308.8646888925
 20
-38.9510048141
 10
307.8401700646
 20
-40.1790875716
 10
306.7845139403
 20
-41.3532531128
 10
305.7014994945
 20
-42.4692982298
 10
304.5950036379
 20
-43.5232277708
 10
303.4689873384
 20
-44.5112689414
 10
302.3274814423
 20
-45.4298848108
 10
301.1745722442
 20
-46.2757869725
 10
300.01438686
 20
-47.0459473164
 10
298.8510784522
 20
-47.7376088683
 10
297.688811363
 20
-48.3482956594
 10
296.5317462068
 20
-48.8758215894
 10
295.3840249768
 20
-49.3182982524
 10
294.2497562169
 20
-49.6741416968
 10
293.133000315
 20
-49.9420780954
 10
292.0377549673
 20
-50.1211483055
 10
290.967940868
 20
-50.2107113022
 10
289.9273876739
 20
-50.2104464732
 10
288.9198202953
 20
-50.1203547666
 10
287.948845562
 20
-49.9407586871
 10
287.0179393115
 20
-49.6723011423
 10
286.1304339466
 20
-49.3159431404
 10
285.3930880774
 20
-48.9336644245
  0
LINE
  5
EB
330
1F
100
AcDbEntity
  8
0
  6
Continuous
 62
     7
370
    25
100
AcDbLine
 10
277.9287672155
 20
-44.6246037119
 30
0.0
 11
277.9287672155
 21
-51.5063441128
 31
0.0
  0
LINE
  5
EC
330
1F
100
AcDbEntity
  8
0
  6
Continuous
 62
     7
370
    25
100
AcDbLine
 10
320.3551740867
 20
1.2717026947
 30
0.0
 11
306.2495657922
 21
2.5329566337
 31
0.0
  0
LINE
  5
ED
330
1F
100
AcDbEntity
  8
0
  6
Continuous
 62
     7
370
    25
100
AcDbLine
 10
320.3551740867
 20
-27.0141007581
 30
0.0
 11
320.3551740867
 21
1.2717026947
 31
0.0
  0
LINE
  5
EE
330
1F
100
AcDbEntity
  8
0
  6
Continuous
 62
     7
370
    25
100
AcDbLine
 10
299.1419706511
 20
-53.4031241618
 30
0.0
 11
320.3551740867
 21
-27.0141007581
 31
0.0
  0
LINE
  5
EF
330
1F
100
AcDbEntity
  8
0
  6
Continuous
 62
     7
370
    25
100
AcDbLine
 10
277.9287672155
 20
-51.5063441128
 30
0.0
 11
299.1419706511
 21
-53.4031241618
 31
0.0
  0
LINE
  5
F0
330
1F
100
AcDbEntity
  8
0
  6
Continuous
 62
     7
370
    25
100
AcDbLine
 10
299.1419706511
 20
-53.4031241618
 30
0.0
 11
306.213038463
 21
-57.485164721
 31
0.0
  0
LINE
  5
F1
330
1F
100
AcDbEntity
  8
0
  6
Continuous
 62
     7
370
    25
100
AcDbLine
 10
320.3551740867
 20
-27.0141007581
 30
0.0
 11
327.4262418986
 21
-31.0961413172
 31
0.0
  0
LINE
  5
F2
330
1F
100
AcDbEntity
  8
0
  6
Continuous
 62
     7
370
    25
100
AcDbLine
 10
306.213038463
 20
-57.485164721
 30
0.0
 11
327.4262418986
 21
-31.0961413172
 31
0.0
  0
LINE
  5
F3
330
1F
100
AcDbEntity
  8
0
  6
Continuous
 62
     7
370
    25
100
AcDbLine
 10
320.3551740867
 20
1.2717026947
 30
0.0
 11
327.4262418986
 21
-2.8103378644
 31
0.0
  0
LINE
  5
F4
330
1F
100
AcDbEntity
  8
0
  6
Continuous
 62
     7
370
    25
100
AcDbLine
 10
327.4262418986
 20
-31.0961413172
 30
0.0
 11
327.4262418986
 21
-2.8103378644
 31
0.0
  0
LWPOLYLINE
  5
F5
330
1F
100
AcDbEntity
  8
0
  6
Continuous
 62
     7
370
    25
100
AcDbPolyline
 90
       54
 70
   128
 43
0.0
 10
327.4901159467
 20
-10.3062865989
 10
327.4912130561
 20
-10.3069200496
 10
328.2816927533
 20
-10.8202862832
 10
329.0200280398
 20
-11.4171001839
 10
329.7035248103
 20
-12.0951840425
 10
330.3296890592
 20
-12.8520636046
 10
330.896235981
 20
-13.6849770986
 10
331.4010983074
 20
-14.5908853137
 10
331.8424338506
 20
-15.566482689
 10
332.218632225
 20
-16.6082093753
 10
332.5283207235
 20
-17.7122642252
 10
332.7703693265
 20
-18.874618662
 10
332.9438948248
 20
-20.0910313806
 10
333.0482640426
 20
-21.3570638228
 10
333.0830961481
 20
-22.6680963736
 10
333.0482640426
 20
-24.0193452173
 10
332.9438948248
 20
-25.4058797935
 10
332.7703693265
 20
-26.8226407879
 10
332.5283207235
 20
-28.2644585931
 10
332.218632225
 20
-29.7260721725
 10
331.8424338506
 20
-31.2021482566
 10
331.4010983074
 20
-32.6873008038
 10
330.896235981
 20
-34.1761106536
 10
330.3296890592
 20
-35.6631453002
 10
329.7035248103
 20
-37.1429787155
 10
329.0200280398
 20
-38.6102111478
 10
328.2816927533
 20
-40.0594888251
 10
327.4912130561
 20
-41.4855234904
 10
326.6514733229
 20
-42.8831116978
 10
325.7655376729
 20
-44.2471537995
 10
324.8366387894
 20
-45.5726725537
 10
323.8681661234
 20
-46.8548312864
 10
322.8636535269
 20
-48.0889515392
 10
321.8267663572
 20
-49.2705301414
 10
320.7612881033
 20
-50.3952556406
 10
319.6711065798
 20
-51.4590240355
 10
318.5601997407
 20
-52.4579537506
 10
317.4326211648
 20
-53.3883997997
 10
316.2924852638
 20
-54.2469670861
 10
315.1439522701
 20
-55.0305227908
 10
313.9912130561
 20
-55.7362078041
 10
312.838473842
 20
-56.3614471579
 10
311.6899408483
 20
-56.9039594215
 10
310.5498049474
 20
-57.3617650266
 10
309.4222263714
 20
-57.7331934901
 10
308.3113195323
 20
-58.0168895099
 10
307.2211380088
 20
-58.21181791
 10
306.1556597549
 20
-58.3172674177
 10
305.1187725852
 20
-58.3328532593
 10
304.1142599887
 20
-58.2585185636
 10
303.1457873228
 20
-58.09453457
 10
302.2168884392
 20
-57.8414996383
 10
301.3309527892
 20
-57.5003370655
 10
300.4923101655
 20
-57.0729251675
  0
LINE
  5
F6
330
1F
100
AcDbEntity
  8
0
  6
Continuous
 62
     7
370
    25
100
AcDbLine
 10
277.9287672155
 20
-51.5063441128
 30
0.0
 11
284.9998350274
 21
-55.5883846719
 31
0.0
  0
LINE
  5
F7
330
1F
100
AcDbEntity
  8
0
  6
Continuous
 62
     7
370
    25
100
AcDbLine
 10
284.9998350274
 20
-55.5883846719
 30
0.0
 11
306.213038463
 21
-57.485164721
 31
0.0
  0
LWPOLYLINE
  5
F8
330
1F
100
AcDbEntity
  8
0
  6
Continuous
 62
     1
370
    25
100
AcDbPolyline
 90
       67
 70
   128
 43
0.0
 10
288.1567446345
 20
10.0910468123
 10
288.5927476415
 20
10.1236462791
 10
289.6296348111
 20
10.1392321207
 10
290.6341474077
 20
10.0648974251
 10
291.6026200736
 20
9.9009134315
 10
292.5315189572
 20
9.6478784998
 10
293.4174546071
 20
9.3067159269
 10
294.2571943403
 20
8.8786705782
 10
295.0476740375
 20
8.3653043446
 10
295.7860093241
 20
7.7684904439
 10
296.4695060946
 20
7.0904065853
 10
297.0956703434
 20
6.3335270233
 10
297.6622172652
 20
5.5006135292
 10
298.1670795916
 20
4.5947053141
 10
298.6084151348
 20
3.6191079389
 10
298.9846135092
 20
2.5773812525
 10
299.2943020078
 20
1.4733264027
 10
299.5363506107
 20
0.3109719658
 10
299.709876109
 20
-0.9054407528
 10
299.8142453269
 20
-2.171473195
 10
299.8490774323
 20
-3.4825057457
 10
299.8142453269
 20
-4.8337545895
 10
299.709876109
 20
-6.2202891657
 10
299.5363506107
 20
-7.63705016
 10
299.2943020078
 20
-9.0788679653
 10
298.9846135092
 20
-10.5404815447
 10
298.6084151348
 20
-12.0165576288
 10
298.1670795916
 20
-13.501710176
 10
297.6622172652
 20
-14.9905200258
 10
297.0956703434
 20
-16.4775546724
 10
296.4695060946
 20
-17.9573880876
 10
295.7860093241
 20
-19.42462052
 10
295.0476740375
 20
-20.8738981973
 10
294.2571943403
 20
-22.2999328626
 10
293.4174546071
 20
-23.69752107
 10
292.5315189572
 20
-25.0615631716
 10
291.6026200736
 20
-26.3870819259
 10
290.6341474077
 20
-27.6692406585
 10
289.6296348111
 20
-28.9033609114
 10
288.5927476415
 20
-30.0849395135
 10
287.5272693876
 20
-31.2096650127
 10
286.437087864
 20
-32.2734334077
 10
285.326181025
 20
-33.2723631228
 10
284.198602449
 20
-34.2028091719
 10
283.058466548
 20
-35.0613764583
 10
281.9099335544
 20
-35.844932163
 10
280.7571943403
 20
-36.5506171763
 10
279.6044551262
 20
-37.17585653
 10
278.4559221326
 20
-37.7183687936
 10
277.3157862316
 20
-38.1761743987
 10
276.1882076556
 20
-38.5476028623
 10
275.0773008166
 20
-38.8312988821
 10
273.987119293
 20
-39.0262272821
 10
272.9216410391
 20
-39.1316767898
 10
271.8847538695
 20
-39.1472626314
 10
270.8802412729
 20
-39.0729279358
 10
269.911768607
 20
-38.9089439422
 10
268.9828697234
 20
-38.6559090105
 10
268.0969340735
 20
-38.3147464376
 10
267.2571943403
 20
-37.8867010889
 10
266.4667146431
 20
-37.3733348553
 10
265.7283793565
 20
-36.7765209546
 10
265.044882586
 20
-36.098437096
 10
264.4187183372
 20
-35.341557534
 10
263.8521714154
 20
-34.5086440399
 10
263.347309089
 20
-33.6027358248
 10
263.1587763186
 20
-33.2113963067
  0
LWPOLYLINE
  5
F9
330
1F
100
AcDbEntity
  8
0
  6
Continuous
 62
     1
370
    25
100
AcDbPolyline
 90
       50
 70
   128
 43
0.0
 10
296.6615339432
 20
7.7506448775
 10
296.8424363084
 20
7.5722360187
 10
297.497824605
 20
6.8405351845
 10
298.0945514194
 20
6.0316957671
 10
298.6304806245
 20
5.1486132018
 10
299.1036937329
 20
4.1944486948
 10
299.5124967643
 20
3.1726179075
 10
299.8554263102
 20
2.0867787289
 10
300.1312547716
 20
0.9408181815
 10
300.3389947543
 20
-0.2611614934
 10
300.4779026031
 20
-1.5148575206
 10
300.5474810639
 20
-2.8157819936
 10
300.5474810639
 20
-4.1592779405
 10
300.4779026031
 20
-5.5405359944
 10
300.3389947543
 20
-6.95461161
 10
300.1312547716
 20
-8.3964427636
 10
299.8554263102
 20
-9.8608680739
 10
299.5124967643
 20
-11.3426452784
 10
299.1036937329
 20
-12.8364699991
 10
298.6304806245
 20
-14.3369947314
 10
298.0945514194
 20
-15.8388479861
 10
297.497824605
 20
-17.3366535183
 10
296.8424363084
 20
-18.825049573
 10
296.1307326496
 20
-20.2987080786
 10
295.365261343
 20
-21.7523537201
 10
294.5487625773
 20
-23.1807828234
 10
293.684159206
 20
-24.578881983
 10
292.7745462849
 20
-25.9416463668
 10
291.8231799922
 20
-27.264197632
 10
290.8334659722
 20
-28.5418013883
 10
289.8089471443
 20
-29.7698841458
 10
288.75329102
 20
-30.9440496871
 10
287.6702765742
 20
-32.0600948041
 10
286.5637807176
 20
-33.114024345
 10
285.4377644182
 20
-34.1020655157
 10
284.296258522
 20
-35.0206813851
 10
283.143349324
 20
-35.8665835468
 10
281.9831639398
 20
-36.6367438907
 10
280.819855532
 20
-37.3284054426
 10
279.6575884427
 20
-37.9390922336
 10
278.5005232866
 20
-38.4666181636
 10
277.3528020565
 20
-38.9090948266
 10
276.2185332966
 20
-39.2649382711
 10
275.1017773947
 20
-39.5328746697
 10
274.0065320471
 20
-39.7119448798
 10
272.9367179478
 20
-39.8015078765
 10
271.8961647537
 20
-39.8012430475
 10
270.8885973751
 20
-39.7111513408
 10
269.9176226418
 20
-39.5315552614
 10
269.4244243263
 20
-39.4018563046
  0
LINE
  5
FA
330
1F
100
AcDbEntity
  8
0
  6
Continuous
 62
     7
370
    25
100
AcDbLine
 10
112.3323425481
 20
4.3625285341
 30
0.0
 11
112.3323425481
 21
-21.1374714659
 31
0.0
  0
LINE
  5
FB
330
1F
100
AcDbEntity
  8
0
  6
Continuous
 62
     7
370
    25
100
AcDbLine
 10
167.3323425481
 20
-21.1374714659
 30
0.0
 11
167.3323425481
 21
4.3625285341
 31
0.0
  0
ARC
  5
FC
330
1F
100
AcDbEntity
  8
0
  6
Continuous
 62
     7
370
    25
100
AcDbCircle
 10
112.8323425481
 20
-21.1374714659
 30
0.0
 40
0.5
100
AcDbArc
 50
180.0
 51
270.0
  0
ARC
  5
FD
330
1F
100
AcDbEntity
  8
0
  6
Continuous
 62
     7
370
    25
100
AcDbCircle
 10
166.8323425481
 20
-21.1374714659
 30
0.0
 40
0.5
100
AcDbArc
 50
270.0
 51
0.0
  0
LINE
  5
FE
330
1F
100
AcDbEntity
  8
0
  6
Continuous
 62
     7
370
    25
100
AcDbLine
 10
112.8323425481
 20
25.3625285341
 30
0.0
 11
112.8323425481
 21
14.3625285341
 31
0.0
  0
LINE
  5
FF
330
1F
100
AcDbEntity
  8
0
  6
Continuous
 62
     7
370
    25
100
AcDbLine
 10
166.8323425481
 20
14.3625285341
 30
0.0
 11
166.8323425481
 21
25.3625285341
 31
0.0
  0
LINE
  5
100
330
1F
100
AcDbEntity
  8
0
  6
Continuous
 62
     7
370
    25
100
AcDbLine
 10
114.8323425481
 20
-21.6374714659
 30
0.0
 11
114.8323425481
 21
-85.6374714659
 31
0.0
  0
LINE
  5
101
330
1F
100
AcDbEntity
  8
0
  6
Continuous
 62
     7
370
    25
100
AcDbLine
 10
164.8323425481
 20
-85.6374714659
 30
0.0
 11
164.8323425481
 21
-21.6374714659
 31
0.0
  0
LINE
  5
102
330
1F
100
AcDbEntity
  8
0
  6
Continuous
 62
     7
370
    25
100
AcDbLine
 10
139.8323425481
 20
4.3625285341
 30
0.0
 11
139.8323425481
 21
14.3625285341
 31
0.0
  0
LINE
  5
103
330
1F
100
AcDbEntity
  8
0
  6
Continuous
 62
     7
370
    25
100
AcDbLine
 10
139.8323425481
 20
4.3625285341
 30
0.0
 11
109.8323425481
 21
4.3625285341
 31
0.0
  0
LINE
  5
104
330
1F
100
AcDbEntity
  8
0
  6
Continuous
 62
     7
370
    25
100
AcDbLine
 10
109.8323425481
 20
4.3625285341
 30
0.0
 11
109.8323425481
 21
14.3625285341
 31
0.0
  0
LINE
  5
105
330
1F
100
AcDbEntity
  8
0
  6
Continuous
 62
     7
370
    25
100
AcDbLine
 10
139.8323425481
 20
14.3625285341
 30
0.0
 11
109.8323425481
 21
14.3625285341
 31
0.0
  0
LINE
  5
106
330
1F
100
AcDbEntity
  8
0
  6
Continuous
 62
     7
370
    25
100
AcDbLine
 10
169.8323425481
 20
4.3625285341
 30
0.0
 11
169.8323425481
 21
14.3625285341
 31
0.0
  0
LINE
  5
107
330
1F
100
AcDbEntity
  8
0
  6
Continuous
 62
     7
370
    25
100
AcDbLine
 10
169.8323425481
 20
4.3625285341
 30
0.0
 11
139.8323425481
 21
4.3625285341
 31
0.0
  0
LINE
  5
108
330
1F
100
AcDbEntity
  8
0
  6
Continuous
 62
     7
370
    25
100
AcDbLine
 10
169.8323425481
 20
14.3625285341
 30
0.0
 11
139.8323425481
 21
14.3625285341
 31
0.0
  0
LINE
  5
109
330
1F
100
AcDbEntity
  8
0
  6
Continuous
 62
     7
370
    25
100
AcDbLine
 10
112.8323425481
 20
-21.6374714659
 30
0.0
 11
166.8323425478
 21
-21.6374714659
 31
0.0
  0
LINE
  5
10A
330
1F
100
AcDbEntity
  8
0
  6
Continuous
 62
     7
370
    25
100
AcDbLine
 10
112.8323425481
 20
25.3625285341
 30
0.0
 11
166.8323425481
 21
25.3625285341
 31
0.0
  0
LINE
  5
10B
330
1F
100
AcDbEntity
  8
0
  6
Continuous
 62
     7
370
    25
100
AcDbLine
 10
114.8323425481
 20
-85.6374714659
 30
0.0
 11
164.8323425481
 21
-85.6374714659
 31
0.0
  0
LINE
  5
10C
330
1F
100
AcDbEntity
  8
0
  6
Continuous
 62
     1
370
    25
100
AcDbLine
 10
112.3323425481
 20
-21.1374714659
 30
0.0
 11
167.3323425481
 21
-21.1374714659
 31
0.0
  0
ENDSEC
  0
SECTION
  2
OBJECTS
  0
DICTIONARY
  5
C
330
0
100
AcDbDictionary
281
     1
  3
ACAD_GROUP
350
D
  3
ACAD_LAYOUT
350
1A
  3
ACAD_MLINESTYLE
350
17
  3
ACAD_PLOTSETTINGS
350
19
  3
ACAD_PLOTSTYLENAME
350
E
  3
ACAD_SCALELIST
350
47
  3
DWGPROPS
350
10D
  0
DICTIONARY
  5
D
102
{ACAD_REACTORS
330
C
102
}
330
C
100
AcDbDictionary
281
     1
  0
DICTIONARY
  5
1A
102
{ACAD_REACTORS
330
C
102
}
330
C
100
AcDbDictionary
281
     1
  3
Layout1
350
1E
  3
Layout2
350
26
  3
Model
350
22
  0
DICTIONARY
  5
17
102
{ACAD_REACTORS
330
C
102
}
330
C
100
AcDbDictionary
281
     1
  3
Standard
350
18
  0
DICTIONARY
  5
19
102
{ACAD_REACTORS
330
C
102
}
330
C
100
AcDbDictionary
281
     1
  0
ACDBDICTIONARYWDFLT
  5
E
102
{ACAD_REACTORS
330
C
102
}
330
C
100
AcDbDictionary
281
     1
  3
Normal
350
F
100
AcDbDictionaryWithDefault
340
F
  0
DICTIONARY
  5
47
102
{ACAD_REACTORS
330
C
102
}
330
C
100
AcDbDictionary
281
     1
  3
A0
350
48
  3
A1
350
49
  3
A2
350
4A
  3
A3
350
4B
  3
A4
350
4C
  3
A5
350
4D
  3
A6
350
4E
  3
A7
350
4F
  3
A8
350
50
  3
A9
350
51
  3
B0
350
52
  3
B1
350
53
  3
B2
350
54
  3
B3
350
55
  3
B4
350
56
  3
B5
350
57
  3
B6
350
58
  3
B7
350
59
  3
B8
350
5A
  3
B9
350
5B
  3
C0
350
5C
  3
C1
350
5D
  3
C2
350
5E
  3
C3
350
5F
  3
C4
350
60
  3
C5
350
61
  3
C6
350
62
  3
C7
350
63
  3
C8
350
64
  3
C9
350
65
  3
D0
350
66
  3
D1
350
67
  3
D2
350
68
  0
XRECORD
  5
10D
102
{ACAD_REACTORS
330
C
102
}
330
C
100
AcDbXrecord
280
     1
  1
DWGPROPS COOKIE
  2

  3

  4

  6

  7

  8
b.kav
  9

300
=
301
=
302
=
303
=
304
=
305
=
306
=
307
=
308
=
309
=
 40
0.0
 41
2459935.584490614
 42
2459935.584490798
  1

 90
        0
  0
LAYOUT
  5
1E
102
{ACAD_REACTORS
330
1A
102
}
330
1A
100
AcDbPlotSettings
  1

  2
none_device
  4

  6

 40
0.0
 41
0.0
 42
0.0
 43
0.0
 44
0.0
 45
0.0
 46
0.0
 47
0.0
 48
0.0
 49
0.0
140
0.0
141
0.0
142
1.0
143
1.0
 70
   688
 72
     1
 73
     0
 74
     5
  7

 75
    16
147
1.0
148
0.0
149
0.0
100
AcDbLayout
  1
Layout1
 70
     1
 71
     1
 10
0.0
 20
0.0
 11
420.0
 21
297.0
 12
0.0
 22
0.0
 32
0.0
 14
1.0000000000E+20
 24
1.0000000000E+20
 34
1.0000000000E+20
 15
-1.0000000000E+20
 25
-1.0000000000E+20
 35
-1.0000000000E+20
146
0.0
 13
0.0
 23
0.0
 33
0.0
 16
1.0
 26
0.0
 36
0.0
 17
0.0
 27
1.0
 37
0.0
 76
     0
330
1B
  0
LAYOUT
  5
26
102
{ACAD_REACTORS
330
1A
102
}
330
1A
100
AcDbPlotSettings
  1

  2
none_device
  4

  6

 40
0.0
 41
0.0
 42
0.0
 43
0.0
 44
0.0
 45
0.0
 46
0.0
 47
0.0
 48
0.0
 49
0.0
140
0.0
141
0.0
142
1.0
143
1.0
 70
   688
 72
     1
 73
     0
 74
     5
  7

 75
    16
147
1.0
148
0.0
149
0.0
100
AcDbLayout
  1
Layout2
 70
     1
 71
     2
 10
0.0
 20
0.0
 11
0.0
 21
0.0
 12
0.0
 22
0.0
 32
0.0
 14
0.0
 24
0.0
 34
0.0
 15
0.0
 25
0.0
 35
0.0
146
0.0
 13
0.0
 23
0.0
 33
0.0
 16
1.0
 26
0.0
 36
0.0
 17
0.0
 27
1.0
 37
0.0
 76
     0
330
23
  0
LAYOUT
  5
22
102
{ACAD_REACTORS
330
1A
102
}
330
1A
100
AcDbPlotSettings
  1

  2
none_device
  4
Letter_(8.50_x_11.00_Inches)
  6

 40
6.35
 41
6.35
 42
6.35000508
 43
6.35000508
 44
215.9
 45
279.4
 46
0.0
 47
0.0
 48
0.0
 49
0.0
140
0.0
141
0.0
142
1.0
143
1.0
 70
  1712
 72
     1
 73
     0
 74
     0
  7

 75
     0
147
1.0
148
0.0
149
0.0
100
AcDbLayout
  1
Model
 70
     1
 71
     0
 10
0.0
 20
0.0
 11
279.4
 21
215.9
 12
0.0
 22
0.0
 32
0.0
 14
0.0
 24
0.0
 34
0.0
 15
279.4
 25
215.9
 35
0.0
146
0.0
 13
0.0
 23
0.0
 33
0.0
 16
1.0
 26
0.0
 36
0.0
 17
0.0
 27
1.0
 37
0.0
 76
     0
330
1F
331
29
  0
MLINESTYLE
  5
18
102
{ACAD_REACTORS
330
17
102
}
330
17
100
AcDbMlineStyle
  2
Standard
 70
     0
  3

 62
   256
 51
90.0
 52
90.0
 71
     2
 49
0.5
 62
   256
  6
BYLAYER
 49
-0.5
 62
   256
  6
BYLAYER
  0
ACDBPLACEHOLDER
  5
F
102
{ACAD_REACTORS
330
E
102
}
330
E
  0
SCALE
  5
48
102
{ACAD_REACTORS
330
47
102
}
330
47
100
AcDbScale
 70
     0
300
1:1
140
1.0
141
1.0
290
     1
  0
SCALE
  5
49
102
{ACAD_REACTORS
330
47
102
}
330
47
100
AcDbScale
 70
     0
300
1:2
140
1.0
141
2.0
290
     0
  0
SCALE
  5
4A
102
{ACAD_REACTORS
330
47
102
}
330
47
100
AcDbScale
 70
     0
300
1:4
140
1.0
141
4.0
290
     0
  0
SCALE
  5
4B
102
{ACAD_REACTORS
330
47
102
}
330
47
100
AcDbScale
 70
     0
300
1:5
140
1.0
141
5.0
290
     0
  0
SCALE
  5
4C
102
{ACAD_REACTORS
330
47
102
}
330
47
100
AcDbScale
 70
     0
300
1:8
140
1.0
141
8.0
290
     0
  0
SCALE
  5
4D
102
{ACAD_REACTORS
330
47
102
}
330
47
100
AcDbScale
 70
     0
300
1:10
140
1.0
141
10.0
290
     0
  0
SCALE
  5
4E
102
{ACAD_REACTORS
330
47
102
}
330
47
100
AcDbScale
 70
     0
300
1:16
140
1.0
141
16.0
290
     0
  0
SCALE
  5
4F
102
{ACAD_REACTORS
330
47
102
}
330
47
100
AcDbScale
 70
     0
300
1:20
140
1.0
141
20.0
290
     0
  0
SCALE
  5
50
102
{ACAD_REACTORS
330
47
102
}
330
47
100
AcDbScale
 70
     0
300
1:30
140
1.0
141
30.0
290
     0
  0
SCALE
  5
51
102
{ACAD_REACTORS
330
47
102
}
330
47
100
AcDbScale
 70
     0
300
1:40
140
1.0
141
40.0
290
     0
  0
SCALE
  5
52
102
{ACAD_REACTORS
330
47
102
}
330
47
100
AcDbScale
 70
     0
300
1:50
140
1.0
141
50.0
290
     0
  0
SCALE
  5
53
102
{ACAD_REACTORS
330
47
102
}
330
47
100
AcDbScale
 70
     0
300
1:100
140
1.0
141
100.0
290
     0
  0
SCALE
  5
54
102
{ACAD_REACTORS
330
47
102
}
330
47
100
AcDbScale
 70
     0
300
2:1
140
2.0
141
1.0
290
     0
  0
SCALE
  5
55
102
{ACAD_REACTORS
330
47
102
}
330
47
100
AcDbScale
 70
     0
300
4:1
140
4.0
141
1.0
290
     0
  0
SCALE
  5
56
102
{ACAD_REACTORS
330
47
102
}
330
47
100
AcDbScale
 70
     0
300
8:1
140
8.0
141
1.0
290
     0
  0
SCALE
  5
57
102
{ACAD_REACTORS
330
47
102
}
330
47
100
AcDbScale
 70
     0
300
10:1
140
10.0
141
1.0
290
     0
  0
SCALE
  5
58
102
{ACAD_REACTORS
330
47
102
}
330
47
100
AcDbScale
 70
     0
300
100:1
140
100.0
141
1.0
290
     0
  0
SCALE
  5
59
102
{ACAD_REACTORS
330
47
102
}
330
47
100
AcDbScale
 70
     0
300
1/128" = 1'-0"
140
0.0078125
141
12.0
290
     0
  0
SCALE
  5
5A
102
{ACAD_REACTORS
330
47
102
}
330
47
100
AcDbScale
 70
     0
300
1/64" = 1'-0"
140
0.015625
141
12.0
290
     0
  0
SCALE
  5
5B
102
{ACAD_REACTORS
330
47
102
}
330
47
100
AcDbScale
 70
     0
300
1/32" = 1'-0"
140
0.03125
141
12.0
290
     0
  0
SCALE
  5
5C
102
{ACAD_REACTORS
330
47
102
}
330
47
100
AcDbScale
 70
     0
300
1/16" = 1'-0"
140
0.0625
141
12.0
290
     0
  0
SCALE
  5
5D
102
{ACAD_REACTORS
330
47
102
}
330
47
100
AcDbScale
 70
     0
300
3/32" = 1'-0"
140
0.09375
141
12.0
290
     0
  0
SCALE
  5
5E
102
{ACAD_REACTORS
330
47
102
}
330
47
100
AcDbScale
 70
     0
300
1/8" = 1'-0"
140
0.125
141
12.0
290
     0
  0
SCALE
  5
5F
102
{ACAD_REACTORS
330
47
102
}
330
47
100
AcDbScale
 70
     0
300
3/16" = 1'-0"
140
0.1875
141
12.0
290
     0
  0
SCALE
  5
60
102
{ACAD_REACTORS
330
47
102
}
330
47
100
AcDbScale
 70
     0
300
1/4" = 1'-0"
140
0.25
141
12.0
290
     0
  0
SCALE
  5
61
102
{ACAD_REACTORS
330
47
102
}
330
47
100
AcDbScale
 70
     0
300
3/8" = 1'-0"
140
0.375
141
12.0
290
     0
  0
SCALE
  5
62
102
{ACAD_REACTORS
330
47
102
}
330
47
100
AcDbScale
 70
     0
300
1/2" = 1'-0"
140
0.5
141
12.0
290
     0
  0
SCALE
  5
63
102
{ACAD_REACTORS
330
47
102
}
330
47
100
AcDbScale
 70
     0
300
3/4" = 1'-0"
140
0.75
141
12.0
290
     0
  0
SCALE
  5
64
102
{ACAD_REACTORS
330
47
102
}
330
47
100
AcDbScale
 70
     0
300
1" = 1'-0"
140
1.0
141
12.0
290
     0
  0
SCALE
  5
65
102
{ACAD_REACTORS
330
47
102
}
330
47
100
AcDbScale
 70
     0
300
1-1/2" = 1'-0"
140
1.5
141
12.0
290
     0
  0
SCALE
  5
66
102
{ACAD_REACTORS
330
47
102
}
330
47
100
AcDbScale
 70
     0
300
3" = 1'-0"
140
3.0
141
12.0
290
     0
  0
SCALE
  5
67
102
{ACAD_REACTORS
330
47
102
}
330
47
100
AcDbScale
 70
     0
300
6" = 1'-0"
140
6.0
141
12.0
290
     0
  0
SCALE
  5
68
102
{ACAD_REACTORS
330
47
102
}
330
47
100
AcDbScale
 70
     0
300
1'-0" = 1'-0"
140
12.0
141
12.0
290
     0
  0
ENDSEC
  0
EOF
